 0
SECTION
 2
ENTITIES
  0
LINE
 8
Layer0
10
729.885787538951
20
421.399755913295
30
2459.25669423824
11
959.278462610949
21
553.839678616242
31
1921.43623303429
  0
LINE
 8
Layer0
10
729.885787538951
20
421.399755913295
30
2824.24221446634
11
-1.80477854883065e-13
21
842.79951182659
31
2824.24221446634
  0
LINE
 8
Layer0
10
-1.80477854883065e-13
20
842.79951182659
30
2824.24221446634
11
-1.80477854883065e-13
21
842.79951182659
31
2459.25669423824
  0
LINE
 8
Layer0
10
-1.80477854883065e-13
20
842.79951182659
30
2459.25669423824
11
729.885787538951
21
421.399755913295
31
2459.25669423824
  0
LINE
 8
Layer0
10
1.80477854883065e-13
20
1.40989300234651e-13
30
3212.28264895843
11
-1.80477854883065e-13
21
842.79951182659
31
2824.24221446634
  0
LINE
 8
Layer0
10
665.532008182011
20
384.245084078196
30
587.016306884026
11
-1.80477854883065e-13
21
768.490168156393
31
587.016306884026
  0
LINE
 8
Layer0
10
750.739667090951
20
433.43974888629
30
887.912962275779
11
0.0
21
866.879497772581
31
887.912962275779
  0
LINE
 8
Layer0
10
690.700936565691
20
398.776371655728
30
934.321154257257
11
750.739667090951
21
433.43974888629
31
887.912962275779
  0
LINE
 8
Layer0
10
959.278462610949
20
-553.839678616242
30
1921.43623303429
11
959.278462610949
21
553.839678616242
31
1921.43623303429
  0
LINE
 8
Layer0
10
959.278462610949
20
553.839678616242
30
1921.43623303429
11
690.700936565691
21
398.776371655728
31
934.321154257257
  0
LINE
 8
Layer0
10
690.700936565691
20
-398.776371655728
30
934.321154257257
11
690.700936565691
21
398.776371655728
31
934.321154257257
  0
LINE
 8
Layer0
10
665.532008182011
20
-384.245084078196
30
587.016306884026
11
665.532008182011
21
384.245084078196
31
587.016306884026
  0
LINE
 8
Layer0
10
750.739667090951
20
-433.43974888629
30
887.912962275779
11
750.739667090951
21
433.43974888629
31
887.912962275779
  0
LINE
 8
Layer0
10
750.739667090951
20
433.43974888629
30
887.912962275779
11
665.532008182011
21
384.245084078196
31
587.016306884026
  0
LINE
 8
Layer0
10
-1.80477854883065e-13
20
-797.552743311456
30
934.321154257257
11
690.700936565691
21
-398.776371655728
31
934.321154257257
  0
LINE
 8
Layer0
10
-1.80477854883065e-13
20
-1107.67935723248
30
1921.43623303429
11
959.278462610949
21
-553.839678616242
31
1921.43623303429
  0
LINE
 8
Layer0
10
959.278462610949
20
-553.839678616242
30
1921.43623303429
11
690.700936565691
21
-398.776371655728
31
934.321154257257
  0
LINE
 8
Layer0
10
0.0
20
-866.87949777258
30
887.912962275779
11
-1.80477854883065e-13
21
-797.552743311456
31
934.321154257257
  0
LINE
 8
Layer0
10
-1.80477854883065e-13
20
-797.552743311456
30
934.321154257257
11
-1.80477854883065e-13
21
-1107.67935723248
31
1921.43623303429
  0
LINE
 8
Layer0
10
690.700936565691
20
-398.776371655728
30
934.321154257257
11
750.739667090951
21
-433.43974888629
31
887.912962275779
  0
LINE
 8
Layer0
10
750.739667090951
20
-433.43974888629
30
887.912962275779
11
665.532008182011
21
-384.245084078196
31
587.016306884026
  0
LINE
 8
Layer0
10
729.885787538951
20
421.399755913295
30
2824.24221446634
11
729.885787538951
21
421.399755913295
31
2459.25669423824
  0
LINE
 8
Layer0
10
729.885787538951
20
421.399755913295
30
2459.25669423824
11
729.885787538951
21
-421.399755913295
31
2459.25669423824
  0
LINE
 8
Layer0
10
729.885787538951
20
-421.399755913295
30
2824.24221446634
11
729.885787538951
21
421.399755913295
31
2824.24221446634
  0
LINE
 8
Layer0
10
0.0
20
-866.87949777258
30
887.912962275779
11
750.739667090951
21
-433.43974888629
31
887.912962275779
  0
LINE
 8
Layer0
10
0.0
20
-768.490168156392
30
587.016306884026
11
0.0
21
-866.87949777258
31
887.912962275779
  0
LINE
 8
Layer0
10
0.0
20
-768.490168156392
30
587.016306884026
11
665.532008182011
21
-384.245084078196
31
587.016306884026
  0
LINE
 8
Layer0
10
1.80477854883065e-13
20
1.40989300234651e-13
30
3212.28264895843
11
729.885787538951
21
-421.399755913295
31
2824.24221446634
  0
LINE
 8
Layer0
10
-1.80477854883065e-13
20
-1107.67935723248
30
1921.43623303429
11
0.0
21
-842.79951182659
31
2459.25669423824
  0
LINE
 8
Layer0
10
729.885787538951
20
-421.399755913295
30
2459.25669423824
11
959.278462610949
21
-553.839678616242
31
1921.43623303429
  0
LINE
 8
Layer0
10
0.0
20
-842.79951182659
30
2824.24221446634
11
1.80477854883065e-13
21
1.40989300234651e-13
31
3212.28264895843
  0
LINE
 8
Layer0
10
1.80477854883065e-13
20
1.40989300234651e-13
30
3212.28264895843
11
729.885787538951
21
421.399755913295
31
2824.24221446634
  0
LINE
 8
Layer0
10
0.0
20
866.879497772581
30
887.912962275779
11
-1.80477854883065e-13
21
768.490168156393
31
587.016306884026
  0
LINE
 8
Layer0
10
690.700936565691
20
398.776371655728
30
934.321154257257
11
0.0
21
797.552743311456
31
934.321154257257
  0
LINE
 8
Layer0
10
0.0
20
797.552743311456
30
934.321154257257
11
0.0
21
866.879497772581
31
887.912962275779
  0
LINE
 8
Layer0
10
959.278462610949
20
553.839678616242
30
1921.43623303429
11
0.0
21
1107.67935723248
31
1921.43623303429
  0
LINE
 8
Layer0
10
0.0
20
1107.67935723248
30
1921.43623303429
11
0.0
21
797.552743311456
31
934.321154257257
  0
LINE
 8
Layer0
10
-1.80477854883065e-13
20
842.79951182659
30
2459.25669423824
11
0.0
21
1107.67935723248
31
1921.43623303429
  0
LINE
 8
Layer0
10
-1.80477854883065e-13
20
842.79951182659
30
2824.24221446634
11
-729.88578753895
21
421.399755913295
31
2824.24221446634
  0
LINE
 8
Layer0
10
-729.88578753895
20
421.399755913295
30
2824.24221446634
11
-729.88578753895
21
421.399755913295
31
2459.25669423824
  0
LINE
 8
Layer0
10
-729.88578753895
20
421.399755913295
30
2459.25669423824
11
-1.80477854883065e-13
21
842.79951182659
31
2459.25669423824
  0
LINE
 8
Layer0
10
1.80477854883065e-13
20
1.40989300234651e-13
30
3212.28264895843
11
-729.88578753895
21
421.399755913295
31
2824.24221446634
  0
LINE
 8
Layer0
10
-1.80477854883065e-13
20
768.490168156393
30
587.016306884026
11
-665.532008182011
21
384.245084078197
31
587.016306884026
  0
LINE
 8
Layer0
10
0.0
20
866.879497772581
30
887.912962275779
11
-750.739667090951
21
433.439748886291
31
887.912962275779
  0
LINE
 8
Layer0
10
-750.739667090951
20
433.439748886291
30
887.912962275779
11
-665.532008182011
21
384.245084078197
31
587.016306884026
  0
LINE
 8
Layer0
10
0.0
20
797.552743311456
30
934.321154257257
11
-690.700936565691
21
398.776371655728
31
934.321154257257
  0
LINE
 8
Layer0
10
-690.700936565691
20
398.776371655728
30
934.321154257257
11
-750.739667090951
21
433.439748886291
31
887.912962275779
  0
LINE
 8
Layer0
10
0.0
20
1107.67935723248
30
1921.43623303429
11
-959.278462610949
21
553.839678616243
31
1921.43623303429
  0
LINE
 8
Layer0
10
-959.278462610949
20
553.839678616243
30
1921.43623303429
11
-690.700936565691
21
398.776371655728
31
934.321154257257
  0
LINE
 8
Layer0
10
-729.88578753895
20
421.399755913295
30
2459.25669423824
11
-959.278462610949
21
553.839678616243
31
1921.43623303429
  0
LINE
 8
Layer0
10
-729.88578753895
20
421.399755913295
30
2824.24221446634
11
-729.88578753895
21
-421.399755913294
31
2824.24221446634
  0
LINE
 8
Layer0
10
-729.88578753895
20
-421.399755913294
30
2824.24221446634
11
-729.88578753895
21
-421.399755913294
31
2459.25669423824
  0
LINE
 8
Layer0
10
-729.88578753895
20
-421.399755913294
30
2459.25669423824
11
-729.88578753895
21
421.399755913295
31
2459.25669423824
  0
LINE
 8
Layer0
10
1.80477854883065e-13
20
1.40989300234651e-13
30
3212.28264895843
11
-729.88578753895
21
-421.399755913294
31
2824.24221446634
  0
LINE
 8
Layer0
10
-665.532008182011
20
384.245084078197
30
587.016306884026
11
-665.532008182012
21
-384.245084078196
31
587.016306884026
  0
LINE
 8
Layer0
10
-750.739667090951
20
433.439748886291
30
887.912962275779
11
-750.739667090951
21
-433.43974888629
31
887.912962275779
  0
LINE
 8
Layer0
10
-750.739667090951
20
-433.43974888629
30
887.912962275779
11
-665.532008182012
21
-384.245084078196
31
587.016306884026
  0
LINE
 8
Layer0
10
-690.700936565691
20
398.776371655728
30
934.321154257257
11
-690.700936565691
21
-398.776371655727
31
934.321154257257
  0
LINE
 8
Layer0
10
-690.700936565691
20
-398.776371655727
30
934.321154257257
11
-750.739667090951
21
-433.43974888629
31
887.912962275779
  0
LINE
 8
Layer0
10
-959.278462610949
20
553.839678616243
30
1921.43623303429
11
-959.27846261095
21
-553.839678616242
31
1921.43623303429
  0
LINE
 8
Layer0
10
-959.27846261095
20
-553.839678616242
30
1921.43623303429
11
-690.700936565691
21
-398.776371655727
31
934.321154257257
  0
LINE
 8
Layer0
10
-729.88578753895
20
-421.399755913294
30
2459.25669423824
11
-959.27846261095
21
-553.839678616242
31
1921.43623303429
  0
LINE
 8
Layer0
10
-729.88578753895
20
-421.399755913294
30
2824.24221446634
11
0.0
21
-842.79951182659
31
2824.24221446634
  0
LINE
 8
Layer0
10
0.0
20
-842.79951182659
30
2459.25669423824
11
-729.88578753895
21
-421.399755913294
31
2459.25669423824
  0
LINE
 8
Layer0
10
-665.532008182012
20
-384.245084078196
30
587.016306884026
11
0.0
21
-768.490168156392
31
587.016306884026
  0
LINE
 8
Layer0
10
-750.739667090951
20
-433.43974888629
30
887.912962275779
11
0.0
21
-866.87949777258
31
887.912962275779
  0
LINE
 8
Layer0
10
-690.700936565691
20
-398.776371655727
30
934.321154257257
11
-1.80477854883065e-13
21
-797.552743311456
31
934.321154257257
  0
LINE
 8
Layer0
10
-959.27846261095
20
-553.839678616242
30
1921.43623303429
11
-1.80477854883065e-13
21
-1107.67935723248
31
1921.43623303429
  0
LINE
 8
Layer0
10
0.0
20
-842.79951182659
30
2459.25669423824
11
0.0
21
-842.79951182659
31
2824.24221446634
  0
LINE
 8
Layer0
10
0.0
20
-842.79951182659
30
2824.24221446634
11
729.885787538951
21
-421.399755913295
31
2824.24221446634
  0
LINE
 8
Layer0
10
729.885787538951
20
-421.399755913295
30
2824.24221446634
11
729.885787538951
21
-421.399755913295
31
2459.25669423824
  0
LINE
 8
Layer0
10
729.885787538951
20
-421.399755913295
30
2459.25669423824
11
0.0
21
-842.79951182659
31
2459.25669423824
 0
ENDSEC
 0
EOF
